banner

Daydreams Chord Guitar

Intro e Versos

E|----------------------------------|
B|---5-------5-------5-------5------|
G|-----6-------6-------6-------6----|
D|----------------------------------|
A|----------------------------------|
E|-5-----5-5-----5-5-----5-5--------|

Day -- dream - er sittin on a seat, etc

E|---4-------4-------4-------4--------|
B|-----5-------5-------5-------5------|
G|------------------------------------|
D|------------------------------------|
A|-5-----5-5-----5-5-----5-5----------|
E|------------------------------------|

Real lovE|-- r of makin up the past.... etc

*Fica mais f'cil ouvindo a m'sica*

PRE CHORUS

E|------------------ e|-----|
A|---5-----------5-- B|--5--|
D|-----6-------6---- x4 then G|--6--| x1
G|------------------ D|-----|
B|-----------5------ A|--5--|
E|-5-----5-5-------- E|--5--|

CHORUS

E|----------- e|------------|
B|--7-------- B|--9---------|
G|----7------ x5, then G|---11-------| x5 and repeat
D|------9---- D|-------11---|
A|----------- A|------------|
E|----------- E|------------|
Previous
Next Post »